Toplam 1 sonuçtan 1 ile 1 arasındakiler gösteriliyor.

Konu: Karlar Düşer (TAB)

  1. #1
    Gitar Dersi Video
    Durumu: recepbzk isimli Üye şimdilik offline konumundadır
    Üyelik tarihi: Mar 2009
    Bulunduğu yer: Kayseri
    Mesajlar: 133
    Ettiği Teşekkürler: 2
    2 Mesajına 2 Kere Teşekkür Edildi.

    Standart Karlar Düşer (TAB)

    Karlar Düşer - TAB


    Karlar düşer...

    e|8-8---7--5----------------------------------------------
    b|----------------------------------------------------------
    g|----------------------------------------------------------

    Düşer düşer ağlarım...

    e|-5-5-5-8-----7-5-1-------------------------------------
    b|----------------------------------------------------------
    g|----------------------------------------------------------

    Hep ismini...

    e|7--7--5--4----------------------------------------------
    b|----------------------------------------------------------
    g|----------------------------------------------------------


    Hep ismini anarım....

    e|-4-4--5-7----5-4-5-------------------------------------
    b|----------------------------------------------------------
    g|----------------------------------------------------------

    Tekrar baştan...
    Konu recepbzk tarafından (27.03.09 Saat 07:35 PM ) değiştirilmiştir.
    RECEP


    SKYPE = recepbzk1

Konu Bilgisi

Users Browsing this Thread

Şu anda 1 üyemiz bu konuya göz atıyor. (0 kayıtlı üye ve 1 misafir.)

Bu Konu İçin Etiketler



Hakkımızda

Hızlı Bağlantılar

Sosyal Platformlar

Facebook Twitter youtube


Content Relevant URLs by vBSEO 3.6.1